Troy Von Balthazar forum
heroic little sister - Printable Version

+- Troy Von Balthazar forum (https://www.troyvonbalthazar.net/forum)
+-- Forum: Troy Von Balthazar (https://www.troyvonbalthazar.net/forum/forumdisplay.php?fid=8)
+--- Forum: TVB song tabs (https://www.troyvonbalthazar.net/forum/forumdisplay.php?fid=11)
+--- Thread: heroic little sister (/showthread.php?tid=225)



heroic little sister - thom-yorke-son - 09-04-2006

encore une que j'ai trouvee a l'oreille, mais je n'ai aucun merite, elle est simple guitaristiquement, mais tres efficace, cet air me colle a l'esprit...

-----------0---------0-----3--3-----3--2--2--0--2---|
-5--5--5-----3--3------3--------0--------------------|
--------------------------------------------------------|
----------------------------2--2--2--2--0--0--0--0---|
-3--3--3--3--2--2--2--2------------------------------|
--------------------------------------------------------|

---------------------------------------------------------------------|
--3--3--3--3--5--5--5--0--1--1--1--1--1--1--7--7--7--7--7--7-|
---------------------------------------------------------------------|
---------------------------------------------------------------------|
--2--2--2--2--3--3--3--0--0--0--0--0--0--0--5--5--5--5--5--5-|
---------------------------------------------------------------------|


- Soften - 24-04-2006

j'ai bien réécouté une des performances live sur une radio...


--------0------------0-------------0------------0-------------|
-5--5-----5--3--3------3--8--8------8--7--7------7---------|
----------------------------------------------------------------|
----------------------------------------------------------------|
-3--3--3--3--2--2--2--2--7--7--7--7---5--5--5--5----------|
----------------------------------------------------------------|

....pour l'intro et verset, puis transition:

---------0-----------0------------------2-----
--3--3-----3--5--5-----0---0h1------1-------
----------------------------------2-------2-----
----------------------------------2--------------
--2--2--2--2--3--3-3--0---0--0--------------

et refrain donc, en accord pour le live radio acoustique:

Am D7 G C Am D7

ça sonne bien et c'est très chouette à jouer seul le soir à la maison. :-)


Re: heroic little sister - Anne - 31-08-2008

merci beaucoup pour celle-ci. personnellement je me base sur la version Session Planet Claire.
sinon je suis triste et déçue, je voulais aller voir Troy à la cigale et la fnac affiche déjà Sold Out Sad
donc du coup je vais voir si je peux essayer de rattraper le coup en passant le voir dans les Yvelines.