Troy Von Balthazar forum
took some $$ - Printable Version

+- Troy Von Balthazar forum (https://www.troyvonbalthazar.net/forum)
+-- Forum: Troy Von Balthazar (https://www.troyvonbalthazar.net/forum/forumdisplay.php?fid=8)
+--- Forum: TVB song tabs (https://www.troyvonbalthazar.net/forum/forumdisplay.php?fid=11)
+--- Thread: took some $$ (/showthread.php?tid=256)



took some $$ - Soften - 07-12-2005

" Took some $$ " - Troy von Balthazar


Morceau très aisé à jouer, une simple suite d’accords qui se répète encore et encore…
Une mesure par accord.




E ----6--------1-----3-------2-------1--------2-----------
B ----8--------3-----4-------4-------3--------1-----------
G ----7--------2-----3-------3-------2------- 2-----------
D ---------------------------------------------------------------
A ---------------------------------------------------------------
E ----------------------------------------------------------------

voilà, s'il y a des corrections, n'hésitez pas à nous en informer!
et sinon je suis pas sûr d'avoir bien catché comment fonctionnent les balises pour els tabs, j'espère que ça va aussi si je la met ainsi smilie Smile


- oli - 07-12-2005

bien sympathique en effet, très plaisant !

merci !


- Guest - 10-12-2005

ouaii merci pour la tablature !
j adule cette chanson !


- Guest - 30-01-2006

tout simplement en accords : Gm/Dm/Eb/Ebm/Dm/D


- blocabloc - 09-12-2006

Salut
je crois avoir trouvé la petite phrase qui est jouée par Adeline dans le live à paris.

e ----------------------------------------------------------------------------------
B ----------------------------------------------------------------------------------
G -7-8-8-8-8-7-5-7---7---7---7---7---7--------5----5------7-8-8-8-8-7-5-7-8
D --------------------8---8---7---7---5---5-7-8----8-----------------------------
A -----------------------------------------------------------------------------------
E -----------------------------------------------------------------------------------

Voilà je pense que c'est juste mais si vous avez des corrections...