you could ice skate to this
06-12-2005, 06:44 PM,
Post: #1
you could ice skate to this
ATTENTION, j'ai volontairement mis un accord a chaque temps, pour bien montrer le tempo en 3/4, pour la veritable rythmique, voyez avec votre feeling!! à bientôt les amis!!

Code:
VERSE
  C                                       F              
E:0--0--0--:0--0--0--:0--0--0--:0--0--0--:1--1--1--:1--1--1--:   *
B:1--1--1--:1--1--1--:1--1--1--:1--1--1--:1--1--1--:1--1--1--: à la troisiém
G:0--0--0--:0--0--0--:0--0--0--:0--0--0--:2--2--2--:2--2--2--:  fois, faire
D:2--2--2--:2--2--2--:2--2--2--:2--2--2--:3--3--3--:3--3--3--:  directement
A:3--3--3--:3--3--3--:3--3--3--:3--3--3--:3--3--3--:3--3--3--:   le chorus
E:x--x--x--:x--x--x--:x--x--x--:x--x--x--:1--1--1--:1--1--1--:    d'ici

  C                   Am                  G         G#dim
E:0--0--0--:0--0--0--:0--0--0--:0--0--0--:X--X--X--:4--4--4--:
B:1--1--1--:1--1--1--:1--1--1--:1--1--1--:0--0--0--:3--3--3--:
G:0--0--0--:0--0--0--:2--2--2--:2--2--2--:0--0--0--:4--4--4--:
D:2--2--2--:2--2--2--:2--2--2--:2--2--2--:0--0--0--:3--3--3--:
A:3--3--3--:3--3--3--:0--0--0--:0--0--0--:---------:---------:
E:---------:---------:---------:---------:3--3--3--:4--4--4--:

  Am        F/A       G                   A#dim
E:0--0--0--:0--0--0--:---------:---------:---------:---------:
B:1--1--1--:1--1--1--:0--0--0--:0--0--0--:2--2--2--:2--2--2--:
G:2--2--2--:2--2--2--:0--0--0--:0--0--0--:3--3--3--:3--3--3--:
D:2--2--2--:3--3--3--:0--0--0--:0--0--0--:2--2--2--:2--2--2--:
A:0--0--0--:0--0--0--:---------:---------:1--1--1--:1--1--1--:
E:---------:---------:3--3--3--:3--3--3--:---------:---------:


CHORUS

  C                   E                   Am
E:0--0--0--:0--0--0--:0--0--0--:0--0--0--:0--0--0--:0--0--0--:
B:1--1--1--:1--1--1--:0--0--0--:0--0--0--:1--1--1--:1--1--1--:
G:0--0--0--:0--0--0--:1--1--1--:1--1--1--:2--2--2--:2--2--2--:
D:2--2--2--:2--2--2--:2--2--2--:2--2--2--:2--2--2--:2--2--2--:
A:3--3--3--:3--3--3--:2--2--2--:2--2--2--:0--0--0--:0--0--0--:
E:---------:---------:0--0--0--:0--0--0--:---------:---------:

  F
E:1--1--1--:1--1--1--:
B:1--1--1--:1--1--1--:
G:2--2--2--:2--2--2--:    
D:3--3--3--:3--3--3--:
A:3--3--3--:3--3--3--:
E:1--1--1--:1--1--1--:

PONT

  Dm
E:1--1--1--:1--1--1--:1--1--1--:1--1--1--:1--1--1--:1--1--1--:
B:3--3--3--:3--3--3--:3--3--3--:3--3--3--:3--3--3--:3--3--3--:
G:2--2--2--:2--2--2--:2--2--2--:2--2--2--:2--2--2--:2--2--2--:
D:0--0--0--:0--0--0--:0--0--0--:0--0--0--:0--0--0--:0--0--0--:
A:---------:---------:---------:---------:---------:---------:
E:---------:---------:---------:---------:---------:---------:

  G
E:3--3--3--:3--3--3--:3--3--3--:3--3--3--:
B:0--0--0--:0--0--0--:0--0--0--:0--0--0--:
G:0--0--0--:0--0--0--:0--0--0--:0--0--0--:
D:0--0--0--:0--0--0--:0--0--0--:0--0--0--:
A:---------:---------:---------:---------:
E:3--3--3--:3--3--3--:3--3--3--:3--3--3--:


STRUCTURE DU MORCEAU:

VERSE
CHORUS
VERSE
CHORUS PONT
VERSE*( voir la note ci-dessus)
CHORUS X2


      enjoy!!!!!!
Reply
07-12-2005, 11:32 AM,
Post: #2
 
merci pour cette tab bien complète...juste un petit détail dont je ne suis pas certain: après le G du verset tu tentes un accords bien peu ordinaire pour du Balthazar (A#dim)...j'avais l'habitude de plutôt le jouer ainsi:



Code:
e---3---
a---2---
d---3---
g---0---
b---x---
e---x---

et sinon, pour confirmer ta tablature et peut-être confirmer mon accord, ou le tient, ce message de Troy reçu il y a fort longtemps...:

the chords to "you could ice skate to this..." are c/f/c am/f/g/e7 am/f/g/strange one on the bottom {c/e7/am/f} and the bridge is dm/g then repeat

yeap. je ne sais trop que penser, n'ayant pas le morceau sous la main...
Reply


Forum Jump:


Users browsing this thread: 1 Guest(s)